[ENG-ESP] Origami backpack. // Mochila de origami.

in GEMS5 days ago

Origami backpack.

Mochila de origami.



Greetings my dear readers! Today I want to present a nice origami, quite simple and that will look great, since it can be given as a gift or can be used even by the little ones of the house when playing.

Saludos mis queridos lectores! Hoy quiero presentar un lindo origami, bastante sencillo y que quedara genial, ya que se puede obsequiar o puede ser usado inclusos por los pequeños de la casa al momento de jugar.


This backpack has few steps and they are really simple, besides if you change some aspects you could create a travel suitcase or any other style of bag from this base.

Esta mochila cuenta con pocos pasos y son realmente sencillos, además si cambias algunos aspectos podrías crear una maleta de viaje o cualquier otro estilo de bolso a partir de esta base.


like all origami you will only need a sheet of paper, in this case 2 squares of 12 centimeters and a rectangle of 12 by 3 centimeters.

como todo origami solo necesitaras una hoja de papel, en este caso 2 cuadrados de 12 centímetros y un rectángulo de 12 por 3 centímetros.

---- English -------------Español------


First we will select one of the boxes and perform the 12 steps that I will show below.
Primero seleccionaremos uno de los cuadros y realizaremos los 12 pasos que mostrare a continuación.


Steps ---- Pasos
--------------1-----------------------------------------------------------------------2 ------------------


Steps ---- Pasos
--------------3-----------------------------------------------------------------------4 ------------------


Steps ---- Pasos
--------------5-----------------------------------------------------------------------6 ------------------


Steps ---- Pasos
--------------7-----------------------------------------------------------------------8 ------------------


Steps ---- Pasos
--------------9----------------------------------------------------------------------10 ------------------


Steps ---- Pasos
--------------11-----------------------------------------------------------------------12 ------------------


Now with the other paper square, we will follow the following 14 steps.
Ahora con el otro cuadrado de papel, seguiremos los siguientes 14 pasos.


Steps ---- Pasos
--------------1-----------------------------------------------------------------------2 ------------------


Steps ---- Pasos
--------------3-----------------------------------------------------------------------4 ------------------


Steps ---- Pasos
--------------5-----------------------------------------------------------------------6 ------------------


Steps ---- Pasos
--------------7-----------------------------------------------------------------------8 ------------------


Steps ---- Pasos
--------------9----------------------------------------------------------------------10 ------------------


Steps ---- Pasos
--------------11-----------------------------------------------------------------------12 ------------------


Steps ---- Pasos
--------------13-----------------------------------------------------------------------14 ------------------


We will proceed to assemble the pieces as shown below.

Procederemos ajuntar las piezas como se ven a continuación.


To finish the rectangle we will cut a strip and continue assembling as shown in the photos. (The eyes and mouth are optional, I made them with a small piece of black paper and made the gloss with concealer).
Para finalizar al rectángulo le cortaremos una tirilla y continuaremos armando tal y como se aprecia en las fotos. (Los ojos y boca son opcionales, yo los realice con un trocito de papel negro e hice el brillo con corrector).







Steps ---- Pasos
--------------1-----------------------------------------------------------------------2 ------------------


Steps ---- Pasos
--------------3-----------------------------------------------------------------------4 ------------------


Steps ---- Pasos
--------------5-----------------------------------------------------------------------6 ------------------


Steps ---- Pasos
--------------7-----------------------------------------------------------------------8 ------------------


Steps ---- Pasos
--------------9----------------------------------------------------------------------10 ------------------


Step ---- Paso
--------------11-----------


This is it! Now it only remains to show the beautiful result, to which I add a mini notebook with my name XD.

Esto es todo! Ahora solo queda mostrar el hermoso resultado, al cual le agregue un mini cuaderno con mi nombre XD.


This origami is very easy to make and also allows us to create a very nice piece as decoration, so I hope you will be motivated to make your own backpack! I love you @shirahoshi and I hope to see you in my next post.

Este origami es muy fácil de hacer y además nos permite crear una pieza muy linda como decoración, así que espero se motiven a realizar su propia mochila! Los quiere @shirahoshi y los espero en mi próximo post.



The photographs are my own and were taken by me with a sony cybershot DSC-S2000 and were edited in powerpoint.

Las fotografías son de mi autoría y fueron tomadas por mí con una camara sony cybershot DSC-S2000 y se editaron en powerpoint.


The Step by Step Gif was made by me in AdobePhotoshop CC2014.

El Gif de Paso a Paso fue realizado por mi en AdobePhotoshop CC2014.


The image of HIVE used on the cover (initial image) was taken from here:

La imagen de HIVE usada en la portada (imagen inicial) fue tomada de acá:


Source--Fuente

My social networks-Mis redes sociales

Sort:  

Me encantó! Hace mucho tiempo hice un curso online de origami, pero qué va! Jajajajaj.... No tengo ni la paciencia, ni el nivel de atención a los detalles que se necesita XD Te felicito :)

Realmente son varios detalles pero si te tomas el tiempo (y agregas una buena música) el origami se hace con mas facilidad. Gracias por visitar!

Haces ver el trabajo muy facil, intentaré llevarlo a cabo. Gracias por tu explicación.

Gracias a ti por tomarte el tiempo de leer, es un placer saber que disfrutas del trabajo que hago.