[Eng-Esp] Origami reindeer. -- Reno de origami.

in GEMS16 days ago (edited)

Origami reindeer.

Reno de origami.


portada.jpg


Greetings my dear reader friends, today, motivated by the proximity of Christmas, I decided to do one of those things that I always love to do but for a matter of time lately I haven't done, Origami!

Saludos mis queridos amigos lectores, el día de hoy, motivada por la pronta cercanía de la navidad, decidí realizar una de esas cosas que siempre me encanta hacer pero por cuestión de tiempo últimamente no he realizado, Origami!!


Because of Christmas, I decided to make a piece that would inspire that Christmas air and what better than a reindeer! But this reindeer will have a nice nose to resemble Rudolph, one of the nine reindeer that pull Santa Clous' sleigh.

Debido a la navidad, decidí realizar una pieza que inspirara ese aire navideño y que mejor que un reno! Pero este reno le colocaremos una linda nariz para que se asemeje a Rudolph, uno de los nueve renos que tira del trineo de Santa Clous.


As materials we will only need a square of paper of the desired color and a piece of black paper, plus a tiny pink circle.

Como materiales solo necesitaremos un cuadrado de papel del color que deseemos y un trozo de papel negro, además de un minúsculo circulo rosa.


In the step by step you will be able to observe how our reindeer takes shape and you will appreciate every tiny double that is needed. I hope you enjoy it!

En el paso a paso podrás observar como toma forma nuestro reno y apreciaras cada minúsculo dobles que se necesita. Espero que lo disfrutes!


Steps ---- Pasos
--------------1-----------------------------------------------------------------------2 ------------------
Imagen1.jpg


Steps ---- Pasos
--------------3-----------------------------------------------------------------------4 ------------------
Imagen2.jpg


Steps ---- Pasos
--------------5-----------------------------------------------------------------------6 ------------------
Imagen3.jpg


Steps ---- Pasos
--------------7-----------------------------------------------------------------------8 ------------------
Imagen4.jpg


Steps ---- Pasos
--------------9----------------------------------------------------------------------10 ------------------
Imagen5.jpg


Steps ---- Pasos
--------------11-----------------------------------------------------------------------12 ------------------
Imagen6.jpg


Steps ---- Pasos
--------------13-----------------------------------------------------------------------14------------------
Imagen7.jpg


Steps ---- Pasos
--------------15-----------------------------------------------------------------------16 ------------------

Imagen8.jpg


Steps ---- Pasos
--------------17-----------------------------------------------------------------------18------------------
Imagen9.jpg


Steps ---- Pasos
--------------19-----------------------------------------------------------------------20------------------

Imagen10.jpg


Steps ---- Pasos
--------------21-----------------------------------------------------------------------22 ------------------
Imagen11.jpg


Steps ---- Pasos
--------------23-----------------------------------------------------------------------24 ------------------
Imagen12.jpg


Steps ---- Pasos
--------------25-----------------------------------------------------------------------26------------------
Imagen13.jpg


Steps ---- Pasos
--------------27-----------------------------------------------------------------------28 ------------------
Imagen14.jpg


Steps ---- Pasos
--------------29-----------------------------------------------------------------------30 ------------------
Imagen15.jpg


Steps ---- Pasos
--------------31-----------------------------------------------------------------------32 ------------------
Imagen16.jpg


Steps ---- Pasos
--------------33-----------------------------------------------------------------------34 ------------------
Imagen17.jpg


Steps ---- Pasos
--------------35----------------------------------------------------------------------36 ------------------
Imagen18.jpg


Once the reindeer is finished, we will make the antlers in a black sheet as we see in the pictures and we will end up hitting the head of the reindeer together with the nose with some glue.
Terminado el reno, realizaremos la cornamenta en una hoja de color negro tal y como vemos en las imagines y finalizaremos pegando con un poco de pega a la cabeza del reno junto con la nariz.



Imagen19.jpg

Imagen20.jpg


Ready to go! This is how our precious Rudolph looks like already finished from different points of view ;-)
Listo! Asi queda nuestro precioso Rudolph ya terminado desde diferentes puntos de vista ;-)

Imagen21.jpg

Imagen22.jpg

Imagen23.jpg

Imagen24.jpg

Imagen25.jpg


This origami is beautiful, and its steps are not really that complex, plus it will look great with other reindeer anywhere in our home. Thanks for reading till the end, I love you @shirahoshi and I'll wait for you in my next post.

Este origami es precioso, y sus pasos no son realmente tan complejos, además quedara súper lindo junto a otros renos en cualquier lugar de nuestro hogar. Gracias por leer hasta el final, los quiere @shirahoshi y los espero en mi próximo post.



The photographs are my own and were taken by me with a Redmi 9 and were edited in powerpoint.

Las fotografías son de mi autoría y fueron tomadas por mí con un Redmi 9 y se editaron en powerpoint.


The Step by Step Gif was made by me in AdobePhotoshop CC2014.

El Gif de Paso a Paso fue realizado por mi en AdobePhotoshop CC2014.


The image of HIVE used on the cover (initial image) was taken from here:

La imagen de HIVE usada en la portada (imagen inicial) fue tomada de acá:


Source--Fuente

My social networks-Mis redes sociales

Sort:  

Colmena-Curie.jpg

¡Felicidades! Esta publicación obtuvo upvote y fue compartido por @la-colmena, un proyecto de Curación Manual para la comunidad hispana de Hive que cuenta con el respaldo de @curie.

Si te gusta el trabajo que hacemos, te invitamos a darle tu voto a este comentario y a votar como testigo por Curie.

Si quieres saber más sobre nuestro proyecto, acompáñanos en Discord: La Colmena.


I love origami. This one looks awesome and I'll be sure to try it. Great work!

Hello @shirahoshi, Your publication has been voted as part of @Edu-venezuela. Your post will be passed on to other curation projects to get more voting support. Keep up the good work!